ForumSevgisi.Com

  ForumSevgisi.Com > ForumSevgisi Müzik Ve Film Dünyası > Müzik ve Video > Nota - Akor - Tab


Jonas Brothers - Poor Unfortunate Souls - TAB


Jonas Brothers - Poor Unfortunate Souls - TAB

Müzik ve Video Kategorisinde ve Nota - Akor - Tab Forumunda Bulunan Jonas Brothers - Poor Unfortunate Souls - TAB Konusunu Görüntülemektesiniz,Konu İçerigi Kısaca ->> Jonas Brothers - Poor Unfortunate Souls - TAB INTRO e--------------------------------| b--------------------------------| g----------7-7------------7-7-7--| d----3-----x-x------3-----x-x-x--| x2 a-5--1--3--5-5---5--1--3--5-5-5--| E-3-----1--------3-----1---------| e-----| b-----| g-7nh-| d-----| ...

Kullanıcı Etiket Listesi

Yeni Konu aç  Cevapla
LinkBack Seçenekler Stil

Okunmamış 02 Aralık 2014, 18:54   #1
Durumu:
Çevrimdışı
Liich
Üye
Liich - ait Kullanıcı Resmi (Avatar)
Keyifli
Üyelik tarihi: 14 Kasım 2014
Yaş: 24
Mesajlar: 7.850
Konular: 4856
Beğenilen: 1368
Beğendiği: 1252
www.forumsevgisi.com
Standart Jonas Brothers - Poor Unfortunate Souls - TAB

Jonas Brothers - Poor Unfortunate Souls - TAB

INTRO
e--------------------------------|
b--------------------------------|
g----------7-7------------7-7-7--|
d----3-----x-x------3-----x-x-x--| x2
a-5--1--3--5-5---5--1--3--5-5-5--|
E-3-----1--------3-----1---------|

e-----|
b-----|
g-7nh-|
d-----|
a-----|
E-----|
(7 is natural harmonic)

VERSE(bass only until...)
e--------|
b--------|listen care****y for it
g-----7--|
d-5-5----|
a--------|
E--------|
* *

CHORUS
e------------|
b------------|
g-----3------|
d--5--3--3---| figure out rhythm
a--5--1--3---|
E--3-----1---|


repeat everything until after 2nd chorus then add...
e-10-----------------13b-|
b-13b--11~----10~--------|
g------------------------|
d------------------------|
a------------------------|
E------------------------|

that weird thing at end of the bridge goes like:
e-12~----(12)--|
b---10~--(10)--|
g-----9~-(9)---|
d--------------|
a--------------|
E--------------|

end "solo"
e-10-10b-12b-13b--|
b-----------------|
g-----------------|figure out timing
d-----------------|
a-----------------|
E-----------------|
Alıntı ile Cevapla
Yeni Konu aç  Cevapla

Etiketler
brothers, jonas, poor, souls, tab, unfortunate

Seçenekler
Stil


Saat: 14:04

Forum Yasal Uyarı
vBulletin® ile Oluşturuldu
Copyright © 2016 vBulletin Solutions, Inc. All rights reserved.

ForumSevgisi.Com Her Hakkı Saklıdır
Tema Tasarım:
Kronik Depresif


Sitemiz bir 'paylaşım' sitesidir. Bu yüzden sitemize kayıt olan herkes kontrol edilmeksizin mesaj/konu/resim paylaşabiliyorlar. Bu sebepten ötürü, sitemizdeki mesaj ya da konulardan doğabilecek yasal sorumluluklar o yazıyı paylaşan kullanıcıya aittir ve iletişim adresine mail atıldığı taktirde mesaj ya da konu en fazla 48 saat içerisinde silinecektir.

ankara escort, izmir escort ankara escort, ankara escort bayan, eryaman escort, bursa escort pendik escort, antalya escort,