ForumSevgisi.Com

  ForumSevgisi.Com > ForumSevgisi Müzik Ve Film Dünyası > Müzik ve Video > Nota - Akor - Tab


Mirkelam - Asuman Pansuman - AKOR


Mirkelam - Asuman Pansuman - AKOR

Müzik ve Video Kategorisinde ve Nota - Akor - Tab Forumunda Bulunan Mirkelam - Asuman Pansuman - AKOR Konusunu Görüntülemektesiniz,Konu İçerigi Kısaca ->> Mirkelam - Asuman Pansuman - AKOR Giriş em d#m e---7----7---7~6---7------- b---8----8---8~7---8------- g---9----9---9~8---9------- d---9----9---9~8---9------- Şarkıya göre ayarlarsınız .. a---7----7---7~6---7------- E---7----7---7~6---7------- Iste ...

Kullanıcı Etiket Listesi

Yeni Konu aç  Cevapla
LinkBack Seçenekler Stil

Okunmamış 10 Aralık 2014, 20:43   #1
Durumu:
Çevrimdışı
User
Güneş teninde güzel.
User - ait Kullanıcı Resmi (Avatar)
Kaygili
Üyelik tarihi: 02 Aralık 2014
Şehir: İstanbul
Mesajlar: 9.308
Konular: 8078
Beğenilen: 727
Beğendiği: 562
www.forumsevgisi.com
Standart Mirkelam - Asuman Pansuman - AKOR

Mirkelam - Asuman Pansuman - AKOR

Giriş
em d#m
e---7----7---7~6---7-------
b---8----8---8~7---8-------
g---9----9---9~8---9-------
d---9----9---9~8---9------- Şarkıya göre ayarlarsınız ..
a---7----7---7~6---7-------
E---7----7---7~6---7-------
Iste bu kapi
Iste bu sapi
daha nasil olur ki askin ispati
Kartal ve Pendik
Gittik gittik geldik
Bakisinca o ahu gözlerle



Em C7
yüzüme bakmadin
B Em
Farketmedin bile
Am
Üzüldüm çok
G Bareli basarsanız daha güzel oluyor ..
Çöktüm ama
A
Derler ya
A B7 C
Kivril fakat kirilma


e----------------
b----------------
g----------------
d---7-7^--------- Beyler tab işaretlerini unutmuşum ^ bend olacak yanlış ise

a---------------- kusura bakmayın
E----------------
A5
Ne kadar ayip
Ne yaptin asuman
Kalbimi kirdin
A5-A5-A5 şarkıya göre anlarsınız
Yap bi pansuman

Başa Dön


e-----------------------------------------------------------------------
b--------------------------4-5--7--5--4-4h5-----------------------------
g--4-5--7--5--4-4----5-----------------------5-4------------------------
d------------------7----------------------------------2--4-5---4--5-7---
a-----------------------------------------------------------------------
e-----------------------------------------------------------------------

e---------------------------------------------
b----------------------------------------------
g---------------------------------------------
d---6-7-7p5--6-7-----9-7--------9------------- eksik olabilir
a------------------------10---9----7---------
e------------------------------------------


Em C
Gitme
B7
Ask silahini bir gün çekince

Ya hamle yap
C
Ya elini kaldir
Em
Dönüp sakin gitme...

Em
Ne kadar ayip )
C )
Ne yaptin asuman ) Burası yanlış olabilir tam emin değilim derinden çalarsanız
uyuyor
Em )
Kalbimi kirdin )
________________
Umut bitti,limanı değil gezegeni verin ateşe.

imza
Alıntı ile Cevapla
Yeni Konu aç  Cevapla

Etiketler
akor, asuman, mirkelam, pansuman

Seçenekler
Stil


Saat: 11:40

Forum Yasal Uyarı
vBulletin® ile Oluşturuldu
Copyright © 2016 vBulletin Solutions, Inc. All rights reserved.

ForumSevgisi.Com Her Hakkı Saklıdır
Tema Tasarım:
Kronik Depresif


Sitemiz bir 'paylaşım' sitesidir. Bu yüzden sitemize kayıt olan herkes kontrol edilmeksizin mesaj/konu/resim paylaşabiliyorlar. Bu sebepten ötürü, sitemizdeki mesaj ya da konulardan doğabilecek yasal sorumluluklar o yazıyı paylaşan kullanıcıya aittir ve iletişim adresine mail atıldığı taktirde mesaj ya da konu en fazla 48 saat içerisinde silinecektir.

ankara escort, izmir escort ankara escort, ankara escort bayan, eryaman escort, bursa escort pendik escort, antalya escort,