ForumSevgisi.Com

  ForumSevgisi.Com > ForumSevgisi Müzik Ve Film Dünyası > Müzik ve Video > Nota - Akor - Tab


Sezen Aksu - Melankoli - AKOR


Sezen Aksu - Melankoli - AKOR

Müzik ve Video Kategorisinde ve Nota - Akor - Tab Forumunda Bulunan Sezen Aksu - Melankoli - AKOR Konusunu Görüntülemektesiniz,Konu İçerigi Kısaca ->> Sezen Aksu - Melankoli - AKOR Gm Cm Beni en güzel günümde Gm Cm Sebepsiz bir keder alır D# F ...

Kullanıcı Etiket Listesi

Yeni Konu aç  Cevapla
LinkBack Seçenekler Stil

Okunmamış 16 Aralık 2014, 16:28   #1
Durumu:
Çevrimdışı
User
Güneş teninde güzel.
User - ait Kullanıcı Resmi (Avatar)
Kaygili
Üyelik tarihi: 02 Aralık 2014
Şehir: İstanbul
Mesajlar: 9.308
Konular: 8078
Beğenilen: 727
Beğendiği: 562
www.forumsevgisi.com
Standart Sezen Aksu - Melankoli - AKOR

Sezen Aksu - Melankoli - AKOR

Gm Cm
Beni en güzel günümde
Gm Cm
Sebepsiz bir keder alır
D# F
Bütün ömrümün beynimde
D# Cm D
Acı bir tortusu kalır

Gm Cm
Anlayamam kederimi
Gm Cm
Bir ateş yakar derimi
D# F
İçim dar bulur yerimi
D# Cm D
Gönlüm dağlarda bunalır

Gm D )
Ne bir dost ne bir sevgili )
Gm D )
Dünyadan uzak bir deli )
D# Cm D ) X2
Beni sarar melankoli )
D# Cm D )
Beni sarar melankoli )

Gm D# D Gm D# D
E-3---6---5-6-5-6-5-6-8-6-5--3---6---5-6-5-6-5-6-8-6-5-----
B----------------------------------------------------------
G----------------------------------------------------------
D----------------------------------------------------------
A----------------------------------------------------------
E----------------------------------------------------------

Gm D# D Gm D# D Gm
E-3---10-8-6-5-6-5-6-5-6-8-6-5--3--------------------------
B---------------------------------3------------------------
G-----------------------------------3--2-3-2-3-2-3-5-3-2-0-
D----------------------------------------------------------
A----------------------------------------------------------
E----------------------------------------------------------

Gm Cm
Ne kış ne yazı isterim
Gm Cm
Ne bir dost yüzü isterim
D# F
Hafif bir sızı isterim
D# Cm D
Ağrılar sancılar gelir

Gm Cm
Yanıma düşer kollarım
Gm Cm
Görünmez olur yollarım
D# F
En sevgilİ emellerim
D# Cm D
Önüme ölüm serilir

Gm D )
Ne bir dost ne bir sevgili )
Gm D )
Dünyadan uzak bir deli )
D# Cm D ) X2
Beni sarar melankoli )
D# Cm D )
Beni sarar melankoli )
________________
Umut bitti,limanı değil gezegeni verin ateşe.

imza
Alıntı ile Cevapla
Yeni Konu aç  Cevapla

Etiketler
akor, aksu, melankoli, sezen

Seçenekler
Stil


Saat: 17:23

Forum Yasal Uyarı
vBulletin® ile Oluşturuldu
Copyright © 2016 vBulletin Solutions, Inc. All rights reserved.

ForumSevgisi.Com Her Hakkı Saklıdır
Tema Tasarım:
Kronik Depresif


Sitemiz bir 'paylaşım' sitesidir. Bu yüzden sitemize kayıt olan herkes kontrol edilmeksizin mesaj/konu/resim paylaşabiliyorlar. Bu sebepten ötürü, sitemizdeki mesaj ya da konulardan doğabilecek yasal sorumluluklar o yazıyı paylaşan kullanıcıya aittir ve iletişim adresine mail atıldığı taktirde mesaj ya da konu en fazla 48 saat içerisinde silinecektir.

ankara escort, izmir escort ankara escort, ankara escort bayan, eryaman escort, bursa escort pendik escort, antalya escort,