ForumSevgisi.Com

  ForumSevgisi.Com > ForumSevgisi Müzik Ve Film Dünyası > Müzik ve Video > Nota - Akor - Tab


Nev - Efkarlıyım - TAB


Nev - Efkarlıyım - TAB

Müzik ve Video Kategorisinde ve Nota - Akor - Tab Forumunda Bulunan Nev - Efkarlıyım - TAB Konusunu Görüntülemektesiniz,Konu İçerigi Kısaca ->> Nev - Efkarlıyım - TAB NEV - EFKARLIYIM h ve p'li kısımları seri bir darbeyle geçerseniz iyi olur [ h:hammer(atma) ...

Kullanıcı Etiket Listesi

Yeni Konu aç  Cevapla
LinkBack Seçenekler Stil

Okunmamış 18 Aralık 2014, 16:48   #1
Durumu:
Çevrimdışı
User
Güneş teninde güzel.
User - ait Kullanıcı Resmi (Avatar)
Kaygili
Üyelik tarihi: 02 Aralık 2014
Şehir: İstanbul
Mesajlar: 9.308
Konular: 8078
Beğenilen: 727
Beğendiği: 562
www.forumsevgisi.com
Standart Nev - Efkarlıyım - TAB

Nev - Efkarlıyım - TAB

NEV - EFKARLIYIM

h ve p'li kısımları seri bir darbeyle geçerseniz iyi olur
[ h:hammer(atma) pull(çekme) ]

|---0h3p0--------0-----0-1-3-0------1------1-0----
|---------1------1-----1-------1----3-(1)--3---1--
|-----------2-----------------------2------2------
|---------------------------------0---------------
|-0------------1-------------------------0--------
|-------------------------------------------------

|-------------------------------------------------
|-3h5p3---3-----1--------1------------------------
|------3-3-----3--------0-------------------------
|-------3-0---2--2-----3--------------------------
|------------3------------------------------------
|-3-------------------1---------------------------

(bu kısımda ritme geçebilirsiniz)
Am Bb Am Dm
Efkarlıyım başım duman
Dm Gm C F
Sitemim var ey koca çınar
Am Bb Am Dm
Zor günümde nicesini andım
Dm Gm C F
Muhabbet yetmezmiş bilmedim

Am Bb Am Dm
Dün bugün dedim gönlüm avuttum
Dm Gm C F
Yarın yetmezmiş bilmedim
Am Bb Am Dm
Dert bir yandan sevda bir yandan
Dm Gm C F
Derman yetmezmiş bilmedim
Dm Gm Am2
Sitem ne çare

Am Bb Am Dm
Şu dünyanın haline kandım
Dm Gm C F
Ben yalnızmışım bilmedim
Am Bb Am Dm
Gönül için için yanar da
Dm Gm C F
Sabır yetmezmiş bilmedim
Dm Gm Am2
Sitem ne çare

Am Bb Am Dm
Efkarlıyım başım duman
Dm Gm C F
Sitemim var ey koca çınar
________________
Umut bitti,limanı değil gezegeni verin ateşe.

imza
Alıntı ile Cevapla
Yeni Konu aç  Cevapla

Etiketler
efkarliyim, nev, tab

Seçenekler
Stil


Saat: 05:33

Forum Yasal Uyarı
vBulletin® ile Oluşturuldu
Copyright © 2016 vBulletin Solutions, Inc. All rights reserved.

ForumSevgisi.Com Her Hakkı Saklıdır
Tema Tasarım:
Kronik Depresif


Sitemiz bir 'paylaşım' sitesidir. Bu yüzden sitemize kayıt olan herkes kontrol edilmeksizin mesaj/konu/resim paylaşabiliyorlar. Bu sebepten ötürü, sitemizdeki mesaj ya da konulardan doğabilecek yasal sorumluluklar o yazıyı paylaşan kullanıcıya aittir ve iletişim adresine mail atıldığı taktirde mesaj ya da konu en fazla 48 saat içerisinde silinecektir.

ankara escort, izmir escort ankara escort, ankara escort bayan, eryaman escort, bursa escort pendik escort, antalya escort,