ForumSevgisi.Com

  ForumSevgisi.Com > ForumSevgisi Müzik Ve Film Dünyası > Müzik ve Video > Nota - Akor - Tab


Nev - Sükut-u Hayal - TAB


Nev - Sükut-u Hayal - TAB

Müzik ve Video Kategorisinde ve Nota - Akor - Tab Forumunda Bulunan Nev - Sükut-u Hayal - TAB Konusunu Görüntülemektesiniz,Konu İçerigi Kısaca ->> Nev - Sükut-u Hayal - TAB Giriş introsu E---------------9/7/9/7--------7-7-9-7---------------------------------------------] B---7-7/8/7/8---------------10--------------10-8-7-8-7-----------------------------] G------------------------------------------------------------9-6-7-6-9-—7-6--------] D----------------------------------------------------------------------------9-----] E----------------9/7/9/7--------7-7-9-7-------------------------------------------] B---7-7/8/7/8---------------10-------------10-8-7-8-7-----------------------------] G-----------------------------------------------------------9-6-7-6-9-—7-6-9------] D---------------------------------------------------------------------------------] B5 A5 Ne başlayabildik ...

Kullanıcı Etiket Listesi

Yeni Konu aç  Cevapla
LinkBack Seçenekler Stil

Okunmamış 20 Aralık 2014, 15:52   #1
Durumu:
Çevrimdışı
User
Güneş teninde güzel.
User - ait Kullanıcı Resmi (Avatar)
Kaygili
Üyelik tarihi: 02 Aralık 2014
Şehir: İstanbul
Mesajlar: 9.308
Konular: 8078
Beğenilen: 727
Beğendiği: 562
www.forumsevgisi.com
Standart Nev - Sükut-u Hayal - TAB

Nev - Sükut-u Hayal - TAB

Giriş introsu

E---------------9/7/9/7--------7-7-9-7---------------------------------------------]
B---7-7/8/7/8---------------10--------------10-8-7-8-7-----------------------------]
G------------------------------------------------------------9-6-7-6-9-—7-6--------]
D----------------------------------------------------------------------------9-----]

E----------------9/7/9/7--------7-7-9-7-------------------------------------------]
B---7-7/8/7/8---------------10-------------10-8-7-8-7-----------------------------]
G-----------------------------------------------------------9-6-7-6-9-—7-6-9------]
D---------------------------------------------------------------------------------]

B5 A5
Ne başlayabildik doğru dürüst
E5
Ne de bitirebildik.
B5 A5
Ne vazgeçebildim,bilirsin beni,
E5
Ne de anlatabildim.

A5 B5
Ah bu aşk iflah etmez beni
E5 B5
Onsa umurunda değil,biliyorum
A5 B5
zaman sen diyorlar çaresi
E5 A5
Geç de nasıl geçersen geç bildiğin gibi

B5 A5
Ah şu gönlüm hiç kimseyi böyle sevmedi
G5 A5
Hiç kimseye böylesine yenilmedi
B5 A5
Ne yapsam ne söylesem de değişmedi ama,
G5 A5
Al dedim,vur demedim ki…

B5 A5
Ayakta hislerim dilimde düğümler
E5
söz geçmiyor ki kendime
B5 A5
Mecalim yok anlat diyorsun ya
E5
bendeki usul kıyameti

A5 B5 E5 B5
Hani birisi daha çok sever ya bizimkisi o misal
A5 B5
Meğer o vefasız çoktan gitmiş
E5 A5
Gel de anlat kendine gel de anlat ellere

Nakarat

Ara intro

E----14-12-10-9-12-10-9-10-9-------9----------------------14-14-12-10-9-----------
B----------------------------10-12----12-10-12-10-------------------------8-7-8---
G---------------------------------------------------12-11-------------------------
D---------------------------------------------------------------------------------

E----------------------------------------------------------------- ]
B-------------------7-8-10-11-8-10------10-8-----8---------------- ]
G----------6-7-9--------------------10--------9-----10—6---------- ]
D----8-9-----------------------------------------------------------]


+ nakarat 2 kez
________________
Umut bitti,limanı değil gezegeni verin ateşe.

imza
Alıntı ile Cevapla
Yeni Konu aç  Cevapla

Etiketler
hayal, nev, sukutu, tab

Seçenekler
Stil


Saat: 08:42

Forum Yasal Uyarı
vBulletin® ile Oluşturuldu
Copyright © 2016 vBulletin Solutions, Inc. All rights reserved.

ForumSevgisi.Com Her Hakkı Saklıdır
Tema Tasarım:
Kronik Depresif


Sitemiz bir 'paylaşım' sitesidir. Bu yüzden sitemize kayıt olan herkes kontrol edilmeksizin mesaj/konu/resim paylaşabiliyorlar. Bu sebepten ötürü, sitemizdeki mesaj ya da konulardan doğabilecek yasal sorumluluklar o yazıyı paylaşan kullanıcıya aittir ve iletişim adresine mail atıldığı taktirde mesaj ya da konu en fazla 48 saat içerisinde silinecektir.

ankara escort, izmir escort ankara escort, ankara escort bayan, eryaman escort, bursa escort pendik escort, antalya escort,