ForumSevgisi.Com

  ForumSevgisi.Com > ForumSevgisi Müzik Ve Film Dünyası > Müzik ve Video > Nota - Akor - Tab


Gökhan Kırdar - Üstüme Basıp Geçme - TAB


Gökhan Kırdar - Üstüme Basıp Geçme - TAB

Müzik ve Video Kategorisinde ve Nota - Akor - Tab Forumunda Bulunan Gökhan Kırdar - Üstüme Basıp Geçme - TAB Konusunu Görüntülemektesiniz,Konu İçerigi Kısaca ->> Gökhan Kırdar - Üstüme Basıp Geçme - TAB Giriş öncesindeki solo = e--------------------------------------------------------------------------------------- B--------------------------------------------------------------------------------------- G--------------------------------------------------------------------------------------- D--2-3-3-2--2-2-2-----2-3-3-2-0---0-2-3-2-0-2-0--2-3-0---0-2---2---0-2-3-2-0-2--2-0---0- A-----------------3-0-----------3----------------------3---------3------------------3--- E--------------------------------------------------------------------------------------- e-------------------------------------------------------------------------| B-------------------------------------------------------------------------| ...

Kullanıcı Etiket Listesi

Yeni Konu aç  Cevapla
LinkBack Seçenekler Stil

Okunmamış 20 Aralık 2014, 16:22   #1
Durumu:
Çevrimdışı
User
Güneş teninde güzel.
User - ait Kullanıcı Resmi (Avatar)
Kaygili
Üyelik tarihi: 02 Aralık 2014
Şehir: İstanbul
Mesajlar: 9.308
Konular: 8078
Beğenilen: 727
Beğendiği: 562
www.forumsevgisi.com
Standart Gökhan Kırdar - Üstüme Basıp Geçme - TAB

Gökhan Kırdar - Üstüme Basıp Geçme - TAB

Giriş öncesindeki solo =

e---------------------------------------------------------------------------------------
B---------------------------------------------------------------------------------------
G---------------------------------------------------------------------------------------
D--2-3-3-2--2-2-2-----2-3-3-2-0---0-2-3-2-0-2-0--2-3-0---0-2---2---0-2-3-2-0-2--2-0---0-
A-----------------3-0-----------3----------------------3---------3------------------3---
E---------------------------------------------------------------------------------------

e-------------------------------------------------------------------------|
B-------------------------------------------------------------------------|
G-------------------------------------------------------------------------|
D--2----------------------------------2-0---------------------------------|
A----3-2-0--3-2-0-2-0--3-2-0-2----2-3-----3-2-0-2--3-2-0-2-0---0-2-0------|
E------------------------------0-----------------------------4------------|

==Giriş== *************


e-----8------------7-----------8---------1------1--0-----------------3-----------------
B---5---5-------------------10-------8---1----1--------1---------3---------------------
G---------5-----7---------10---------9------2--------2---------4---4-------------------
D-----------------------10---------9-------------------------5-------------------------
A-0----------7--------8----------7-----------------------------------------------------
E----------------------------------------1-----------------0---------------------------


e-----8------7--------------8---------------1---0----------------3-----------------------------5----
B---5---5--------8--------10---8------------1-------1--------3----------0-1---0-1------------5------
G---------5----7--------10---------7------2-------2--------4---4------2----2------2--------5--------
D---------------------10---------9------3----------------5-------------------------------7----------
A-0----------------------------7-------------------------------------------------------7------------
E------------0------8-----------------1---------3------0------------0----------------5--------------


******************************


e------0---0---0------------------0---------0---0---0-------------------------------
B--------3---1---0----------0-1-0-------------3---1---0---------0-1-0---------------
G----2--------------------2---------------2-------------------2---------------------
D-----------------------3-----------------------------------3-----------------------
A--0------------------------------------0-------------------------------------------
E---------------------1-----------------------------------1-------------------------

1)Bıraksanda elimi sevgin bana yeter , susarım öpüşüne avunurda söylemem

2)Yazıkki ağır ağır çökmüş yüreğine , nefret değilmi bu yalan sevişmeler


e----------3-------3----------------0----------------------3----0---------0--------
B--------5-----------3--------0-1-0---0--------1---------3---6--------1------------
G------5---------4----------2----------------2---------4------------2---2----------
D----5--------------------3----------------3---------5------------2----------------
A--3------------------------------------------------------------0------------------
E-------------3---------1----------------1---------3-------------------------------

1)Belki yalandır oyundur derim ya , yine de korku basar

2)Sen değilsin sanki yarısı yatağımın, üşürüm sarılsam bile



Asus2 Cadd9 G Fmaj7
İsyanım yanışıma ölüm bile susuyor
F G Am G
Ardına dönüp giden sen misin a kadın
Asus2 Cadd9 G Fmaj7
Gururum yere düşer yeterki bak yüzüme
F G Am
Üstüme basıp geçme yar
________________
Umut bitti,limanı değil gezegeni verin ateşe.

imza
Alıntı ile Cevapla
Yeni Konu aç  Cevapla

Etiketler
basip, gecme, gokhan, kirdar, tab, ustume

Seçenekler
Stil


Saat: 09:42

Forum Yasal Uyarı
vBulletin® ile Oluşturuldu
Copyright © 2016 vBulletin Solutions, Inc. All rights reserved.

ForumSevgisi.Com Her Hakkı Saklıdır
Tema Tasarım:
Kronik Depresif


Sitemiz bir 'paylaşım' sitesidir. Bu yüzden sitemize kayıt olan herkes kontrol edilmeksizin mesaj/konu/resim paylaşabiliyorlar. Bu sebepten ötürü, sitemizdeki mesaj ya da konulardan doğabilecek yasal sorumluluklar o yazıyı paylaşan kullanıcıya aittir ve iletişim adresine mail atıldığı taktirde mesaj ya da konu en fazla 48 saat içerisinde silinecektir.

ankara escort, izmir escort ankara escort, ankara escort bayan, eryaman escort, bursa escort pendik escort, antalya escort,