ForumSevgisi.Com

  ForumSevgisi.Com > ForumSevgisi Müzik Ve Film Dünyası > Müzik ve Video > Nota - Akor - Tab


Duman - Hatun Tab (1-2 Versiyon)


Duman - Hatun Tab (1-2 Versiyon)

Müzik ve Video Kategorisinde ve Nota - Akor - Tab Forumunda Bulunan Duman - Hatun Tab (1-2 Versiyon) Konusunu Görüntülemektesiniz,Konu İçerigi Kısaca ->> Duman - Hatun Tab (1-2 Versiyon) Duman - Hatun Tab : Riff 1 e|----------------------------------------------------------------- B|--7-7-10-9b-7-5-7b-5-3-5-3-2---7-7-10-9b-7-5-7b------------------ G|----------------------------------------------------------------- D|----------------------------------------------------------------- A|----------------------------------------------------------------- E|----------------------------------------------------------------- e|-----------------------------------------------------------------| ...

Kullanıcı Etiket Listesi

Yeni Konu aç  Cevapla
LinkBack Seçenekler Stil

Okunmamış 24 Aralık 2014, 00:50   #1
Durumu:
Çevrimdışı
User
Güneş teninde güzel.
User - ait Kullanıcı Resmi (Avatar)
Kaygili
Üyelik tarihi: 02 Aralık 2014
Şehir: İstanbul
Mesajlar: 9.308
Konular: 8078
Beğenilen: 727
Beğendiği: 562
www.forumsevgisi.com
Standart Duman - Hatun Tab (1-2 Versiyon)

Duman - Hatun Tab (1-2 Versiyon)

Duman - Hatun Tab :

Riff 1
e|-----------------------------------------------------------------
B|--7-7-10-9b-7-5-7b-5-3-5-3-2---7-7-10-9b-7-5-7b------------------
G|-----------------------------------------------------------------
D|-----------------------------------------------------------------
A|-----------------------------------------------------------------
E|-----------------------------------------------------------------

e|-----------------------------------------------------------------|
B|--7-7-10-9b-7-5-7b-5-3-5-3-2-------------------------------------|
G|------------------------------5-5-8-7b-5-3-5b~--5-5-8-7b-5-3-5b~-|
D|-----------------------------------------------------------------|
A|-----------------------------------------------------------------|
E|-----------------------------------------------------------------|

Riff 2
D|------------------------------------------------|
A|---9-9-8-7-7---6-5-5---6--7-7-8-9---------------|
E|---7-7-6-5-5---4-3-3---4--5-5-6-7---------------|

Riff 4
D|--------------------------------------------|
A|-10-10-11-12-12--13-14-14--13--12-12-11-10--|
E|-8---8--9-10-10--11-12-12--11--10-10--9--8--|

D|-----------------------|
A|-10-10-11-12-12--13-14-|
E|-8---8--9-10-10--11-12-|


Riff 3
D|------------------------------------------------|
A|---9--12--11--9--------7--5--4------------------|
E|---7--10--9---7--------5--3--2------------------|
B5 D5 C#5 B5 A5 G5 F#5

################################################## ################

Güzeli gördü mü kalbini çalmalı sebebi yoktur anam
Canını sıktı mı hatunu savmalı sebebi yoktur anam

Sebebi yoktur anam...


(( Riff 1 ve 4 kez Riff 2 )) Çift Gitar

(( Riff 2 ))
Guzeli gordu mu kalbini calmali sebebi yoktur anam
Canini sikti mi hatunu salmali sebebi yoktur anam
Sebebi yoktur anam
Sebebi yoktur anam

(( Riff 3 )) - Nakarat
B5 D5
Hatunun cani ceker
C#5
Seytan aklini basindan alir kacar gider
B5
Satar seni o dilbere

(( Riff 1 ve 4 kez Riff 2 )) Çift Gitar

(( Riff 2 ))
Yuzunu bakti mi gonlunu yakmali sebebi yoktur anam
Canini sikti mi hatunu salmali sebebi yoktur anam
Sebebi yoktur anam
Sebebi yoktur anam

(( Riff 3)) - Nakarat
B5 D5
Hatunun cani ceker
C#5
Seytan aklini basindan alir kacar gider
B5
Satar seni o dilbere
A5
Satar seni o dilbere
G5
Satar seni o dilbere
F#5
Satar seni o dilbereee

Riff 2 ve ardından Riff 4

BASS ve DAVUL ile nakaratın sözleri.

(( Riff 3 )) - Nakarat

(( Riff 1 ve Riff 2 )) Çift gitar.
Yarısında şarkı biter.

Versiyon 2 :

e|--2-2-5-4-2-0-2-0-----------2-2-5-4-2-0-2-2-2-2-2--
B|-------------------3-5-3-2--------------------------------
G|-----------------------------------------------------------------
D|-----------------------------------------------------------------
A|-----------------------------------------------------------------
E|-----------------------------------------------------------------

hemen devam ediyoruz :

e|--2-2-5-4-2-0-2-0----------------------------------------------------------------|
B|-----------------------3-5-3-2-0-0-3-2-0---0-0-0-0-0-------0-0-3-2-0---0-|
G|-----------------------------------------2---------------------------2------------|
D|----------------------------------------------------------------------------------|
A|----------------------------------------------------------------------------------|
E|----------------------------------------------------------------------------------|
________________
Umut bitti,limanı değil gezegeni verin ateşe.

imza
Alıntı ile Cevapla
Yeni Konu aç  Cevapla

Etiketler
duman, hatun, tab, versiyon

Seçenekler
Stil


Saat: 05:34

Forum Yasal Uyarı
vBulletin® ile Oluşturuldu
Copyright © 2016 vBulletin Solutions, Inc. All rights reserved.

ForumSevgisi.Com Her Hakkı Saklıdır
Tema Tasarım:
Kronik Depresif


Sitemiz bir 'paylaşım' sitesidir. Bu yüzden sitemize kayıt olan herkes kontrol edilmeksizin mesaj/konu/resim paylaşabiliyorlar. Bu sebepten ötürü, sitemizdeki mesaj ya da konulardan doğabilecek yasal sorumluluklar o yazıyı paylaşan kullanıcıya aittir ve iletişim adresine mail atıldığı taktirde mesaj ya da konu en fazla 48 saat içerisinde silinecektir.

ankara escort, izmir escort ankara escort, ankara escort bayan, eryaman escort, bursa escort pendik escort, antalya escort,