ForumSevgisi.Com

  ForumSevgisi.Com > ForumSevgisi Müzik Ve Film Dünyası > Müzik ve Video > Nota - Akor - Tab


Hayko Cepkin - Gökdelenler - TAB


Hayko Cepkin - Gökdelenler - TAB

Müzik ve Video Kategorisinde ve Nota - Akor - Tab Forumunda Bulunan Hayko Cepkin - Gökdelenler - TAB Konusunu Görüntülemektesiniz,Konu İçerigi Kısaca ->> Hayko Cepkin - Gökdelenler - TAB Hayko Cepkin - Gökdelenler - TAB intro d----------------- a----------------- f-----------4----- c---2-------4----- g---2-------2----- d---0------------- (x9) ...

Kullanıcı Etiket Listesi

Yeni Konu aç  Cevapla
LinkBack Seçenekler Stil

Okunmamış 20 Ocak 2015, 19:18   #1
Durumu:
Çevrimdışı
User
Güneş teninde güzel.
User - ait Kullanıcı Resmi (Avatar)
Kaygili
Üyelik tarihi: 02 Aralık 2014
Şehir: İstanbul
Mesajlar: 9.308
Konular: 8078
Beğenilen: 727
Beğendiği: 562
www.forumsevgisi.com
Standart Hayko Cepkin - Gökdelenler - TAB

Hayko Cepkin - Gökdelenler - TAB

Hayko Cepkin - Gökdelenler - TAB

intro
d-----------------
a-----------------
f-----------4-----
c---2-------4-----
g---2-------2-----
d---0-------------

(x9)

d----7---8---9----
a----8---9---10---
f----9---10--11---
c----9---10--11---
g----7---8---9----
d-----------------

uzun uzun seyrettim seni diğer köşesinden barın
bir karakter oturttum yüzüne kalbine
uzaktan bakıp insanlara konuşmalar yazdım dudaklara
sonra kendime baktım tıklım tıklım yalnızdım

(köprü)
D------------------------------------------------------------
A------------------------------------------------------------
F------------------------------------------------------------
C-2-2---2-2-2---2-2-2---2-2-2---2-2-2---2-2-2---2-2-2---2----
G-2-2---2-2-2---2-2-2---2-2-2---2-2-2---2-2-2---2-2-2---2----
D-0-0---0-0-0---0-0-0---0-0-0---0-0-0---0-0-0---0-0-0---0----


(nakarat)
(ritm gitar)
D-------------------------|----------------------------------
A-------------------------|----------------------------------
F--9-9-9-9----------------|---5--5--5--5---4--4--4--4---5-5--
C--9-9-9-9---7--7---2-2---|---5--5--5--5---4--4--4--4---5-5--
G--7-7-7-7---7--7---2-2---|---3--3--3--3---2--2--2--2---3-3--
D------------5--5---0-0---|----------------------------------

gökdelenlerden tükürdüm dünyaya ben hayatım boyunca

bu yüzden kupkuru ağzım bak geçmedi yıllarca
________________
Umut bitti,limanı değil gezegeni verin ateşe.

imza
Alıntı ile Cevapla
Yeni Konu aç  Cevapla

Etiketler
cepkin, gokdelenler, hayko, tab

Seçenekler
Stil


Saat: 01:54

Forum Yasal Uyarı
vBulletin® ile Oluşturuldu
Copyright © 2016 vBulletin Solutions, Inc. All rights reserved.

ForumSevgisi.Com Her Hakkı Saklıdır
Tema Tasarım:
Kronik Depresif


Sitemiz bir 'paylaşım' sitesidir. Bu yüzden sitemize kayıt olan herkes kontrol edilmeksizin mesaj/konu/resim paylaşabiliyorlar. Bu sebepten ötürü, sitemizdeki mesaj ya da konulardan doğabilecek yasal sorumluluklar o yazıyı paylaşan kullanıcıya aittir ve iletişim adresine mail atıldığı taktirde mesaj ya da konu en fazla 48 saat içerisinde silinecektir.

ankara escort, izmir escort ankara escort, ankara escort bayan, eryaman escort, bursa escort pendik escort, antalya escort,