ForumSevgisi.Com

  ForumSevgisi.Com > ForumSevgisi Müzik Ve Film Dünyası > Müzik ve Video > Nota - Akor - Tab


Metallica - Devil's Dance - Tab


Metallica - Devil's Dance - Tab

Müzik ve Video Kategorisinde ve Nota - Akor - Tab Forumunda Bulunan Metallica - Devil's Dance - Tab Konusunu Görüntülemektesiniz,Konu İçerigi Kısaca ->> Metallica - Devil's Dance - Tab Metallica - Devil's Dance - Tab Intro: (Intro bass riff tabbed for guitar) E|------------------------------------| ...

Kullanıcı Etiket Listesi

Yeni Konu aç  Cevapla
LinkBack Seçenekler Stil

Okunmamış 20 Ocak 2015, 20:18   #1
Durumu:
Çevrimdışı
User
Güneş teninde güzel.
User - ait Kullanıcı Resmi (Avatar)
Kaygili
Üyelik tarihi: 02 Aralık 2014
Şehir: İstanbul
Mesajlar: 9.308
Konular: 8078
Beğenilen: 727
Beğendiği: 562
www.forumsevgisi.com
Standart Metallica - Devil's Dance - Tab

Metallica - Devil's Dance - Tab

Metallica - Devil's Dance - Tab

Intro:

(Intro bass riff tabbed for guitar)
E|------------------------------------|
B|------------------------------------|
G|------------------------------------| REPEATS
D|------------------------------------| THROUGHOUT
A|------------------------------------| INTRO
D|--6~--0---0---0-3-0---0-5-3-0-3-5---|


E|-----------|--------------|----------|---------------|
B|-----------|--------------|----------|---------------|
G|-----------|--------------|----------|---------------| PLAY
D|-----------|--------------|----------|---------------| 1X
A|--8-8------|--8-8-8-8-8---|--8-8-----|--0-0-0-0------|
D|--8-8------|--8-8-8-8-8---|--8-8-----|--0-0-0-0------|
x x x x x x x x m m m m


E|---------------------------------|
B|---------------------------------|
G|---------------------------------| PLAY
D|---------------------------------| 8X
A|--0-0-0-0---0-0---0-0---0-0--0---|
D|--0-0-0-0---0-0---0-0---0-0--0---|
m m m m m m m m m m m

E|-----------------------------------------------------|
B|-----------------------------------------------------|
G|-----------------------------------------------------|
D|-----------------------------------------------------|
A|--0--------------------------------------------------|
D|--0--------------------------------------------------|
^ Let Ring out about 16 beats....


E|-------------|------------|-----------|--------------|
B|-------------|------------|-----------|--------------|
G|-------------|------------|-----------|--------------|
D|-------------|------------|-----------|--------------|
A|-/5----------|-/5---------|-/5--------|-/5-----------|
D|-----6~------|-----5~-----|-----6~----|-----5~-------|


Main Riff: with swing feel.

E|------------------------|---------------------------|
B|------------------------|---------------------------|
G|------------------------|---------------------------| PLAY
D|------------------------|---------------------------| 2X
A|--5-----------5---------|--5------------5-----------|
D|------6~----------5~----|------6~----------5--3p0---|


E|-------|
B|-------|
G|-------| PLAY
D|-------| 1X
A|-------|
D|--3p0--|

Verse:

E|-------------------------------|
B|-------------------------------|
G|-------------------------------| PLAY
D|-------------------------------| 3X
A|--0-0-0-0---0-0-----0---0---0--|
D|--0-0-0-0---0-3-----0---0---0--|
m m m m m m m m

E|-------------------------------|
B|-------------------------------|
G|-------------------------------| PLAY
D|-------------------------------| 1X
A|--0-0-0-0---0-0----------------|
D|--0-0-0-0---0-3-----5b6r5--3---|
m m m m m

E|-------------------------------|--------------------------------|
B|-------------------------------|--------------------------------|
G|-------------------------------|--------------------------------| PLAY
D|-------------------------------|--------------------------------| 1X
A|--3-3-3-3---3-3---3-3---3-3--3-|--3-3-3-3---3-3---3-3-----------|
D|--3-3-3-3---3-3---3-3---3-3--3-|--3-3-3-3---3-3---3-3-5b6r5--3--|
m m m m m m m m m m m m m m m m m m

E|-------------------------------|
B|-------------------------------|
G|-------------------------------| PLAY
D|-------------------------------| 1X
A|--0-0-0-0---0-0-----0---0---0--|
D|--0-0-0-0---0-3-----0---0---0--|
m m m m m m m m

E|-------------------------------|
B|-------------------------------|
G|-------------------------------| PLAY
D|-------------------------------| 1X
A|--0-0-0-0---0-0----------------|
D|--0-0-0-0---0-3-----5b6r5--3---|
m m m m m

E|-------------------------------|--------------------------|
B|-------------------------------|--------------------------|
G|-------------------------------|--------------------------| PLAY
D|-------------------------------|--------------------------| 1X
A|--3-3-3-3---3-3---3-3---3-3--3-|--2-2-2-2---2-2---2-2-----|
E|--3-3-3-3---3-3---3-3---3-3--3-|--2-2-2-2---2-2---2-2-----|
m m m m m m m m m m m m m m m m m


Bridge:

E|---------------------------|----------------------------|
B|---------------------------|----------------------------|
G|---------------------------|----------------------------| PLAY
D|---------------------------|----------------------------| 1X
A|--5-----------5------------|---5-----------5------------|
D|------6~----------5~-------|-------6~----------5~--3p0--|


E|-------|
B|-------|
G|-------| PLAY
D|-------| 1X
A|-------|
D|--3p0--|


Chorus:

E|---------------------------------|---------------------------|
B|---------------------------------|---------------------------|
G|---------------------------------|---------------------------| PLAY
D|---------------------------------|---------------------------| 3x
A|--6-------6-------6-------6---3--|--0-----3-----3-----0--3---|
D|--6---6-6-6---6-6-6---6-6-6---3--|--0--0--3-----3-----0--3---|
m m m m m m m

E|------------------|
B|------------------|
G|------------------| PLAY
D|------------------| 1X
A|--6---------------|
D|--6---------------|


Repeat Main Riff
Repeat Verse
Repeat Bridge
Repeat Chorus

Solo Rhythm:


E|---------------------------------|
B|---------------------------------|
G|---------------------------------| PLAY
D|---------------------------------| 4X
A|--0-0-0-0---0-0---0-0---0-0--0---|
D|--0-0-0-0---0-0---0-0---0-0--0---|
m m m m m m m m m m m

E|---------------------------------|
B|---------------------------------|
G|---------------------------------| PLAY
D|---------------------------------| 3X
A|--3-3-3-3---3-3---3-3---3-3--3---|
D|--3-3-3-3---3-3---3-3---3-3--3---|
m m m m m m m m m m m

E|---------------------------------|
B|---------------------------------|
G|---------------------------------| PLAY
D|---------------------------------| 1X
A|--3-3-3-3---3-3---3-3------------|
D|--3-3-3-3---3-3---3-3--5b6r5--3--|
m m m m m m m m

E|-------------------------------|
B|-------------------------------|
G|-------------------------------| PLAY
D|-------------------------------| 4X
A|--0-0-0-0---0-0-----0---0---0--|
D|--0-0-0-0---0-3-----0---0---0--|
m m m m m m m m

E|---------------------------------|---------------------------|
B|---------------------------------|---------------------------|
G|---------------------------------|---------------------------| PLAY
D|---------------------------------|---------------------------| 3x
A|--6-------6-------6-------6---3--|--0-----3-----3-----0--3---|
D|--6---6-6-6---6-6-6---6-6-6---3--|--0--0--3-----3-----0--3---|
m m m m m m m

E|------------------|
B|------------------|
G|------------------| PLAY
D|------------------| 1X
A|--6---------------|
D|--6---------------|


E|-------------|------------|-----------|--------------|
B|-------------|------------|-----------|--------------|
G|-------------|------------|-----------|--------------| PLAY
D|-------------|------------|-----------|--------------| 1X
A|-/5----------|-/5---------|-/5--------|-/5-----------|
D|-----6~------|-----5~-----|-----6~----|-----5~-------|


E|------------------------|---------------------------|
B|------------------------|---------------------------|
G|------------------------|---------------------------| PLAY
D|------------------------|---------------------------| 1X
A|--5-----------5---------|--5------------5-----------|
D|------6~----------5~----|------6~----------5--3p0---|


E|------------------------|---------------------------|
B|------------------------|---------------------------|
G|------------------------|---------------------------| PLAY
D|------------------------|---------------------------| 1X
A|--5-----------5---------|--5-------6---------6--6---|
D|------6~----------5~----|------6~--6---------6--6---|
________________
Umut bitti,limanı değil gezegeni verin ateşe.

imza
Alıntı ile Cevapla
Yeni Konu aç  Cevapla

Etiketler
dance, devils, metallica, tab

Seçenekler
Stil


Saat: 09:30

Forum Yasal Uyarı
vBulletin® ile Oluşturuldu
Copyright © 2016 vBulletin Solutions, Inc. All rights reserved.

ForumSevgisi.Com Her Hakkı Saklıdır
Tema Tasarım:
Kronik Depresif


Sitemiz bir 'paylaşım' sitesidir. Bu yüzden sitemize kayıt olan herkes kontrol edilmeksizin mesaj/konu/resim paylaşabiliyorlar. Bu sebepten ötürü, sitemizdeki mesaj ya da konulardan doğabilecek yasal sorumluluklar o yazıyı paylaşan kullanıcıya aittir ve iletişim adresine mail atıldığı taktirde mesaj ya da konu en fazla 48 saat içerisinde silinecektir.

ankara escort, izmir escort ankara escort, ankara escort bayan, eryaman escort, bursa escort pendik escort, antalya escort,