ForumSevgisi.Com

  ForumSevgisi.Com > ForumSevgisi Müzik Ve Film Dünyası > Müzik ve Video > Nota - Akor - Tab


Judas Priest - Angel Gitar Tab


Judas Priest - Angel Gitar Tab

Müzik ve Video Kategorisinde ve Nota - Akor - Tab Forumunda Bulunan Judas Priest - Angel Gitar Tab Konusunu Görüntülemektesiniz,Konu İçerigi Kısaca ->> Judas Priest - Angel Gitar Tab Judas Priest - Angel Gitar Tab g-----6h7-7--6-7--------------------------------- d--------------------5---------3----------------- a---9--------------5---5-----3---3--------------- e-7-------------3----------5--------------------- g-----6h7-7--9-7--------------------------------- d--------------------5---------3----------------- a---9--------------5---5-----3---3--------------- e-7-------------3----------5--------------------- ...

Kullanıcı Etiket Listesi

Yeni Konu aç  Cevapla
LinkBack Seçenekler Stil

Okunmamış 20 Ocak 2015, 20:27   #1
Durumu:
Çevrimdışı
User
Güneş teninde güzel.
User - ait Kullanıcı Resmi (Avatar)
Kaygili
Üyelik tarihi: 02 Aralık 2014
Şehir: İstanbul
Mesajlar: 9.308
Konular: 8078
Beğenilen: 727
Beğendiği: 562
www.forumsevgisi.com
Standart Judas Priest - Angel Gitar Tab

Judas Priest - Angel Gitar Tab

Judas Priest - Angel Gitar Tab

g-----6h7-7--6-7---------------------------------
d--------------------5---------3-----------------
a---9--------------5---5-----3---3---------------
e-7-------------3----------5---------------------
g-----6h7-7--9-7---------------------------------
d--------------------5---------3-----------------
a---9--------------5---5-----3---3---------------
e-7-------------3----------5---------------------
Angel - put sad wings around me now
Protect me from this world of sin
So that we can rise again
Oh angel - we can find our way somehow
Escaping from the world we're in
To a place where we began
G Bm
And I know we'll find a better place and
G Bm
peace of mind just tell me that it's
G Em F#
all you want - for you and me
F#
Angel won't you set me free
g-----6h7-7--6-7---------------------------------
d--------------------5---------3-----------------
a---9--------------5---5-----3---3---------------
e-7-------------3----------5---------------------
g-----6h7-7--9-7---------------------------------
d--------------------5---------3-----------------
a---9--------------5---5-----3---3---------------
e-7-------------3----------5---------------------
Angel remember how we'd chase the sun
Then reaching for the stars at night
As our lives had just begun
G Bm G Bm
When I close my eyes I hear your velvet wings and cry
G Em F#
I'm waiting here with open arms - oh can't you see
F#
Angel shine your light on me
g-----6h7-7--6-7---------------------------------
d--------------------5---------3-----------------
a---9--------------5---5-----3---3---------------
e-7-------------3----------5---------------------
g-----6h7-7--9-7---------------------------------
d--------------------5---------3-----------------
a---9--------------5---5-----3---3---------------
e-7-------------3----------5---------------------
Em F#
angel we'll meet once more I'll pray
Bm G
When all my sins are washed away

Em F#
Hold me inside your wings and
Bm Bm/A G
stay
F# Bm G
Angel take me far away
A Bm
Put sad wings around me now
G A Bm G
Angel take me far away
A Bm
Put sad wings around me now
G A Bm G
So that we can rise again
A Bm
Put sad wings around me now
G A Bm G
Angel take me far away
A Bm
Put sad wings around me now
G A G A Bm
So that we can rise again
________________
Umut bitti,limanı değil gezegeni verin ateşe.

imza
Alıntı ile Cevapla
Yeni Konu aç  Cevapla

Etiketler
angel, gitar, judas, priest, tab

Seçenekler
Stil


Saat: 13:32

Forum Yasal Uyarı
vBulletin® ile Oluşturuldu
Copyright © 2016 vBulletin Solutions, Inc. All rights reserved.

ForumSevgisi.Com Her Hakkı Saklıdır
Tema Tasarım:
Kronik Depresif


Sitemiz bir 'paylaşım' sitesidir. Bu yüzden sitemize kayıt olan herkes kontrol edilmeksizin mesaj/konu/resim paylaşabiliyorlar. Bu sebepten ötürü, sitemizdeki mesaj ya da konulardan doğabilecek yasal sorumluluklar o yazıyı paylaşan kullanıcıya aittir ve iletişim adresine mail atıldığı taktirde mesaj ya da konu en fazla 48 saat içerisinde silinecektir.

ankara escort, izmir escort ankara escort, ankara escort bayan, eryaman escort, bursa escort pendik escort, antalya escort,