ForumSevgisi.Com

  ForumSevgisi.Com > ForumSevgisi Müzik Ve Film Dünyası > Müzik ve Video > Nota - Akor - Tab


İrem Derici-Kalbimin Tek Sahibine -Tab


İrem Derici-Kalbimin Tek Sahibine -Tab

Müzik ve Video Kategorisinde ve Nota - Akor - Tab Forumunda Bulunan İrem Derici-Kalbimin Tek Sahibine -Tab Konusunu Görüntülemektesiniz,Konu İçerigi Kısaca ->> İrem Derici-Kalbimin Tek Sahibine -Tab E|---------------5--------/--------4------4------/------ B|--5-5-5-7-5-------------/--7-7-7---7-5---------/------ G|-------------7----------/----------------------/------ Dualar eder insan Mutlu bir ömür için E|---------------5--------/--------4------4------/------ B|--5-5-5-7-5-------------/--7-7-7---7-5---------/------ G|-------------7----------/----------------------/------ Sen varsan ...

Kullanıcı Etiket Listesi

Yeni Konu aç  Cevapla
LinkBack Seçenekler Stil

Okunmamış 20 Ocak 2015, 20:47   #1
Durumu:
Çevrimdışı
User
Güneş teninde güzel.
User - ait Kullanıcı Resmi (Avatar)
Kaygili
Üyelik tarihi: 02 Aralık 2014
Şehir: İstanbul
Mesajlar: 9.308
Konular: 8078
Beğenilen: 727
Beğendiği: 562
www.forumsevgisi.com
Standart İrem Derici-Kalbimin Tek Sahibine -Tab

İrem Derici-Kalbimin Tek Sahibine -Tab

E|---------------5--------/--------4------4------/------
B|--5-5-5-7-5-------------/--7-7-7---7-5---------/------
G|-------------7----------/----------------------/------
Dualar eder insan Mutlu bir ömür için
E|---------------5--------/--------4------4------/------
B|--5-5-5-7-5-------------/--7-7-7---7-5---------/------
G|-------------7----------/----------------------/------
Sen varsan her yer huzur Huzurla yanar içim
E|------------------------/----------------------/------
B|--5------5--------------/-----5-5-5--7-5---7---/------
G|----7-6----7-6----------/----------------7-----/------
Çok Şükür bin şükür seni bana verene
E|------------------------/----------------------/------
B|----------------5-------/--7-5-7-5-------------/------
G|--7-6-4--7-6-4----------/-----------7-6--------/------
yazmasın tek günümü sensiz kadere
E|-----------5-----------/-------------4---------/------
B|--7-7-7--7-------------/--5-7-5-7-5------------/------
G|-----------------------/-----------------------/------
ellerimiz bir gönüllerimiz bir
E|-----------------------------------/------------------
B|--5-----7-5----7-5-7-5-------------/------------------
G|----7-6-----7----------7-7-6-------/------------------
vedalar denizler engeldir sevene
E|----------------------4-5----------/------------------
B|--5-5-5-7-5-----7-7-7--------------/------------------
G|--------------7--------------------/------------------
bu sarkı kalbimin tek sahibine
E|------------------------/---------4-5-------/--------
B|--5-5-5---7-5-----------/--7-7-7------------/--------
G|--------------7---------/-------------------/--------
ömürlük yarima gönül eşime
E|------------------------/---------4-5-------/--------
B|--5-5-5-7-5-------------/--7-7-7------------/--------
G|-------------7----------/-------------------/--------
bahar sensin bana gülüşün cennet
E|---------------------------------/--------------------
B|--5-5-5-7-5----7-5-7-5-----------/--------------------
G|------------7----------7-6-------/--------------------
melekler nur saçmış aşkın yüzüne.
________________
Umut bitti,limanı değil gezegeni verin ateşe.

imza
Alıntı ile Cevapla
Yeni Konu aç  Cevapla

Etiketler
dericikalbimin, irem, sahibine, tab, tek

Seçenekler
Stil


Saat: 18:20

Forum Yasal Uyarı
vBulletin® ile Oluşturuldu
Copyright © 2016 vBulletin Solutions, Inc. All rights reserved.

ForumSevgisi.Com Her Hakkı Saklıdır
Tema Tasarım:
Kronik Depresif


Sitemiz bir 'paylaşım' sitesidir. Bu yüzden sitemize kayıt olan herkes kontrol edilmeksizin mesaj/konu/resim paylaşabiliyorlar. Bu sebepten ötürü, sitemizdeki mesaj ya da konulardan doğabilecek yasal sorumluluklar o yazıyı paylaşan kullanıcıya aittir ve iletişim adresine mail atıldığı taktirde mesaj ya da konu en fazla 48 saat içerisinde silinecektir.

ankara escort, izmir escort ankara escort, ankara escort bayan, eryaman escort, bursa escort pendik escort, antalya escort,