ForumSevgisi.Com

  ForumSevgisi.Com > ForumSevgisi Müzik Ve Film Dünyası > Müzik ve Video > Nota - Akor - Tab


Duman-Rüyanda Görsen İnanma Tab


Duman-Rüyanda Görsen İnanma Tab

Müzik ve Video Kategorisinde ve Nota - Akor - Tab Forumunda Bulunan Duman-Rüyanda Görsen İnanma Tab Konusunu Görüntülemektesiniz,Konu İçerigi Kısaca ->> Duman-Rüyanda Görsen İnanma Tab INTRO: F#5 ve E5 te arpej F#m Em F#m arkadas sen bu değilsin Em F#m görünüs ...

Kullanıcı Etiket Listesi

Yeni Konu aç  Cevapla
LinkBack Seçenekler Stil

Okunmamış 30 Mart 2015, 23:58   #1
Durumu:
Çevrimdışı
User
Güneş teninde güzel.
User - ait Kullanıcı Resmi (Avatar)
Kaygili
Üyelik tarihi: 02 Aralık 2014
Şehir: İstanbul
Mesajlar: 9.308
Konular: 8078
Beğenilen: 727
Beğendiği: 562
www.forumsevgisi.com
Standart Duman-Rüyanda Görsen İnanma Tab

Duman-Rüyanda Görsen İnanma Tab

INTRO: F#5 ve E5 te arpej


F#m Em F#m
arkadas sen bu değilsin
Em F#m
görünüs sadece giysin
Em G
arkadaş niye gucendin
Bm A Bm A G
alıştım karıştım ben sana
F#m
RUYANDA GORSEN İNANMA




burası ilk kıtadaki "ALISTIM KARISTIM" arasında calınan yer
E||--------------------||
B||--------------------||
G||--6--7--6h7p6-------||
D||--------------9--7--||
A||--------------------||
E||--------------------||




F#m Em F#m
E||-----------------------|-----------------|---------------------------|------------------------|
B||-----------------------|-----------------|---------------------------|------------------------|
G||-----------------------|-----------------|---------------------------|------------------------|
D||-----------------------|-----------------|---------------------------|------------------------|
A||-----------------------|--------4--------|---------------------------|------------------------|
E||--2----2----2----5--2--|--5--7-----7--5~-|--10--12--10~---7--9--7~---|--5--7--5~---3--5--3~---|


F#m Em F#m
-----------------------|--------------------|---------------------------|------------------------||
-----------------------|--------------------|---------------------------|------------------------||
-----------------------|--------------------|---------------------------|------------------------||
-----------------------|--------------------|---------------------------|------------------------||
-----------------------|--------4-----------|---------------------------|------------------------||
--2----2----2----5b-2--|--5--7-----7--5~-7--|--10--12--10~---7--9--7~---|--5--7--5~---3--5--3~---||






F#m Em F#m
arkadaş sen bu değildin
Em F#m
bilinen sadece ismin
Em G
arkadaş niye değiştin
Bm A Bm A G
alıştım karıştım ben sana
F#m
RUYANDA GORSEN İNANMA


burası da ikinici kıtadaki "ALISTIM KARISTIM" arasında Kaan la beraber calınıyo
E||--------------||
B||--------------||
G||--7--6--------||
D||--------9--7--||
A||--------------||
E||--------------||


ara solo
F#m Em F#m
E||-----------------------|-----------------|---------------------------|------------------------|
B||-----------------------|-----------------|---------------------------|------------------------|
G||-----------------------|-----------------|---------------------------|------------------------|
D||-----------------------|-----------------|---------------------------|------------------------|
A||-----------------------|--------4--------|---------------------------|------------------------|
E||--2----2----2----5--2--|--5--7-----7--5~-|--10--12--10~---7--9--7~---|--5--7--5~---3--5--3~---|


F#m Em F#m
-----------------------|--------------------|---------------------------|------------------------||
-----------------------|--------------------|---------------------------|------------------------||
-----------------------|--------------------|---------------------------|------------------------||
-----------------------|--------------------|---------------------------|------------------------||
-----------------------|--------4-----------|---------------------------|------------------------||
--2----2----2----5b-2--|--5--7-----7--5~-7--|--10--12--10~---7--9--7~---|--5--7--5~---3--5--3~---||










F#m Em F#m
arkadaş sen bu değilsin
Em F#m
yaşayan sadece fikrin
Em G
arkadaş niye gücendin
Bm A Bm A G
alıştım karıştım ben sana
F#m
RUYANDA GORSEN İNANMA




burası üçüncü kıtadaki "ALISTIM KARISTIM" arasında calınan yer
E||--------------------||
B||--------------------||
G||--6--7--6h7p6-------||
D||--------------9--7--||
A||--------------------||
E||--------------------||








F#m Em |
sana boynumuzu eğeriz sanma |
Bm A |
hakkımızı gelir alırız zorla | burası 3 kere tekrarlanıyo
G F#m |
saklayacak yüzün yok yok |
G F#m |
RUYANDA GORSEN İNANMA |




cıkış solosu


F#m Em Bm A G
E||--------2--0--------------|-----------------------0--|--------------------------|--------------------------
|
B||--2--3--------3--2--2--3--|--2--0--0--2--0--2--3-----|--3--2--0--0--2--0--------|--0-----------2--0--------
|
G||--------------------------|--------------------------|--------------------2--2--|-----2--0--2--------2--0--
|
D||--------------------------|--------------------------|--------------------------|--------------------------
|
A||--------------------------|--------------------------|--------------------------|--------------------------
|
E||--------------------------|--------------------------|--------------------------|--------------------------
|


F#m G F#m


-----------0--------------|--------------------------|---------------------||
-----2--3-----2--3--0--2--|-----0--------------------|---------------------||
--------------------------|--2-----2--0--------0--2--|--0------------------||
--4-----------------------|--------------4--4--------|-------4--5--4-------||
--------------------------|--------------------------|---------------------||
--------------------------|--------------------------|---------------------||
________________
Umut bitti,limanı değil gezegeni verin ateşe.

imza
Alıntı ile Cevapla
Yeni Konu aç  Cevapla

Etiketler
dumanruyanda, gorsen, inanma, tab

Seçenekler
Stil


Saat: 22:22

Forum Yasal Uyarı
vBulletin® ile Oluşturuldu
Copyright © 2016 vBulletin Solutions, Inc. All rights reserved.

ForumSevgisi.Com Her Hakkı Saklıdır
Tema Tasarım:
Kronik Depresif


Sitemiz bir 'paylaşım' sitesidir. Bu yüzden sitemize kayıt olan herkes kontrol edilmeksizin mesaj/konu/resim paylaşabiliyorlar. Bu sebepten ötürü, sitemizdeki mesaj ya da konulardan doğabilecek yasal sorumluluklar o yazıyı paylaşan kullanıcıya aittir ve iletişim adresine mail atıldığı taktirde mesaj ya da konu en fazla 48 saat içerisinde silinecektir.

ankara escort, izmir escort ankara escort, ankara escort bayan, eryaman escort, bursa escort pendik escort, antalya escort,